Scary monsters and nice sprites part 2

(/) Slide Up  (\) Slide Down  (h) Hammer On  (p) Pull Off  (b) Bend (r) Release (v) Vibrato


E|------13--10-----------------10h11p10------------------13------------------------------------------
B|--11----------13--11--11h13------------11--11--11--11------10--10--11--10--------------------------
G|-----------------------------------------------------------------------------12--10----------------
D|---------------------------------------------------------------------------------------------------
A|---------------------------------------------------------------------------------------------------
E|---------------------------------------------------------------------------------------------------

E|------13--10-----------------10h11h13------
B|--11----------13--11--11h13------------11--
G|-------------------------------------------
D|-------------------------------------------
A|-------------------------------------------
E|-------------------------------------------
Guitar Tab Creator is intended to store guitar tab created through the tool. It currently does not support in-line text editing. Any text you place in here will be lost. If you need to comment on your tab, please use the "Tab Notes" section located below.