Empire 1

(/) Slide Up  (\) Slide Down  (h) Hammer On  (p) Pull Off  (b) Bend (r) Release (v) Vibrato

E|-------------------------------------------------------
B|-------------------------------------------------------
G|--------10--10--10--10-----------------------10--------
D|--3--3--10--10--10--10--3--3--3--3--3--3--3--10--3--3--
A|--3--3--8---8---8---8---3--3--3--3--3--3--3--8---3--3--
E|--0--0------------------0--0--0--0--0--0--0------0--0--



E|------------------------------------------------------------
B|------------------------------------------------------------
G|--------10--10--10--10--------10--10--------11--11--11--11--
D|--3--3--10--10--10--10--3--3--10--10--3--3--11--11--11--11--
A|--3--3--8---8---8---8---3--3--8---8---3--3--9---9---9---9---
E|--0--0------------------0--0----------0--0------------------



E|-----
B|-----
G|-----
D|-----
A|-----
E|-----



E|----------------------------------------------
B|----------------------------------------------
G|--------10--10--10--10--------------10--------
D|--3--3--10--10--10--10--3--3--------10--3--3--
A|--3--3--8---8---8---8---3--3--------8---3--3--
E|--0--0------------------0--0--10\0------0--0--



E|----------------------------------------------------
B|----------------------------------------------------
G|--------10--10--10--10--------11--11--------12--12--
D|--3--3--10--10--10--10--3--3--11--11--3--3--12--12--
A|--3--3--8---8---8---8---3--3--9---9---3--3--10--10--
E|--0--0------------------0--0----------0--0----------



E|----------------------------------------
B|----------------------------------------
G|--------4--4--4--4--4--4----------------
D|--3--3--4--4--4--4--4--4----------------
A|--3--3--2--2--2--2--2--2----------------
E|--0--0--------------------10\0--3\0--0--
http://www.guitartabcreator.com
Guitar Tab Creator is intended to store guitar tab created through the tool. It currently does not support in-line text editing. Any text you place in here will be lost. If you need to comment on your tab, please use the "Tab Notes" section located below.