BassandGuitartab

(/) Slide Up  (\) Slide Down  (h) Hammer On  (p) Pull Off  (b) Bend (r) Release (v) Vibrato
E|--------------------------------------------------
B|--------------------------------------------------
G|--------------------------------------------------
D|--4--4--4--4--4--4--4--4--4--6--5--4--6--5--4--6--
A|--4--4--4--4--4--4--4--4--4--6--5--4--6--5--4--6--
E|--4--4--4--4--4--4--4--4--4--6--5--4--6--5--4--6--



E|--------------------
B|--------------------
G|--------------------
D|--------------------
A|-----9--------------
E|--7-----8--9--9--8--



E|------------------------------------------------------
B|------------------------------------------------------
G|------------------------------------------------------
D|------------------------------------------------------
A|------------------------------------------------------
E|--10--12--6--4--2--1--2--2--2--2--4--4--4--4----------
http://www.guitartabcreator.com
Guitar Tab Creator is intended to store guitar tab created through the tool. It currently does not support in-line text editing. Any text you place in here will be lost. If you need to comment on your tab, please use the "Tab Notes" section located below.