Keep Coming Back For More

(/) Slide Up  (\) Slide Down  (h) Hammer On  (p) Pull Off  (b) Bend (r) Release (v) Vibrato


E|--6--5--6--5--6--5--6--10--6--5--6--5--6--5--6--5--6--8--6--5--18--17--18--17--15--13--15--13--
B|-----------------------------------------------------------------------------------------------
G|-----------------------------------------------------------------------------------------------
D|-----------------------------------------------------------------------------------------------
A|-----------------------------------------------------------------------------------------------
E|-----------------------------------------------------------------------------------------------



E|--6--5--6--5--6--5--6--10--6--5--6--5--6--5--5--6--5--3--1--5--6--5--3-----3-----3--1--3--1--3--
B|------------------------------------------------------------------------4-----4-----------------
G|------------------------------------------------------------------------------------------------
D|------------------------------------------------------------------------------------------------
A|------------------------------------------------------------------------------------------------
E|------------------------------------------------------------------------------------------------



E|--------------------
B|--4--3--1--3--1--4--
G|--------------------
D|--------------------
A|--------------------
E|--------------------



E|--5--6--5--6--5--6--5--8--6--5--6--5--6--5--6--5--10--8--6--5--6--5--6--5--6--5--6--5--3--1--
B|---------------------------------------------------------------------------------------------
G|---------------------------------------------------------------------------------------------
D|---------------------------------------------------------------------------------------------
A|---------------------------------------------------------------------------------------------
E|---------------------------------------------------------------------------------------------
http://www.guitartabcreator.com
Guitar Tab Creator is intended to store guitar tab created through the tool. It currently does not support in-line text editing. Any text you place in here will be lost. If you need to comment on your tab, please use the "Tab Notes" section located below.