wukka wukka

(/) Slide Up  (\) Slide Down  (h) Hammer On  (p) Pull Off  (b) Bend (r) Release (v) Vibrato

E|---------------------------------------------------------------------------------------
B|---------------------------------------------------------------------------------------
G|---------------------------------------------------------------------------------------
D|-------------5/7--0--6/5--4------------------5/7--0--6/5--5/3--------------------------
A|-------5--7------------------5/7-------5--7--------------------0--5/3--3--3/2----------
E|--5/7-----------------------------5/7------------------------------------------3--3/2--



E|-------------------------------------------------------------------------------------
B|----------------------------------------------7--6--6/8--8/6--0----------------------
G|-------------------------------------------7---------------------0--4--4/2-----------
D|--------------------------0--5/4--0--7--7-----------------------------------0--------
A|-------------0--2/4--4/5-------------------------------------------------------0--2--
E|--0--0--2/4--------------------------------------------------------------------------
http://www.guitartabcreator.com
Guitar Tab Creator is intended to store guitar tab created through the tool. It currently does not support in-line text editing. Any text you place in here will be lost. If you need to comment on your tab, please use the "Tab Notes" section located below.