Real Life Ending (Dark part)

(/) Slide Up  (\) Slide Down  (h) Hammer On  (p) Pull Off  (b) Bend (r) Release (v) Vibrato


E|-----
B|-----
G|--2--
D|--0--
A|-----
E|-----



E|------------------------------------------------------------------
B|------------------------------------------------------------------
G|------------------------------------------------------------------
D|------------------------------------------------------------------
A|--12--12--12--12--10--10--10--10--12--12--12--12------------------
E|--------------------------------------------------10--10--10--10--



E|------------------------------------------------------------------
B|------------------------------------------------------------------
G|------------------------------------------------------------------
D|------------------------------------------------------------------
A|--12--12--12--12--10--10--10--10--12--12--12--10------------------
E|--------------------------------------------------10--10--10--10--



E|-----------------------------------------
B|-----------------------------------------
G|-----------------------------------------
D|-----------------------------------------
A|--13--13--13--13/15--15--17--13--12------
E|-------------------------------------10--



E|---------------------------------------------
B|---------------------------------------------
G|---------------------------------------------
D|---------------------------------------------
A|--13--13--13--13/15--15--17--13--12--10--12--
E|---------------------------------------------
http://www.guitartabcreator.com
Guitar Tab Creator is intended to store guitar tab created through the tool. It currently does not support in-line text editing. Any text you place in here will be lost. If you need to comment on your tab, please use the "Tab Notes" section located below.