Real Life

(/) Slide Up  (\) Slide Down  (h) Hammer On  (p) Pull Off  (b) Bend (r) Release (v) Vibrato
E|-------------------------------------------------------
B|-------------------------------------------------------
G|-------------------------------------------------------
D|-------------------------------------------------------
A|-------------------------------------------------------
E|--7------5------10------3------7------5------3------3--



E|--------------------------------------------------------
B|--------------------------------------------------------
G|--------------------------------------------------------
D|--------------------------------------------------------
A|-----9-----7------5h7--4----4/12--12--10h12--10--5------
E|--7-----7-----------------------------------------------



E|-------------------------------------------------------
B|-------------------------------------------------------
G|-------------------------------------------------------
D|-------------------------------------------------------
A|--5/7--9--9--7/5--4--5--4h5p4-----5-----5-----5-----5--
E|-------------------------------3-----3-----3-----3-----



E|-------------------------------------------------------------------
B|-------------------11----------------------------------------------
G|--7--6--4----7--6--11----------11h12--11----11--11------11h12--11--
D|--9--7--5----9--7--12--12--12-----------------------12-------------
A|-------------------------------------------------------------------
E|--7--5--3----7--5--10----------------------------------------------



E|------------------------------
B|------------------------------
G|--7--6--------4------2--------
D|--9--7--------5------0--------
A|------------------------------
E|--7--5--------3---------------



E|-----------------------------
B|-----------------------------
G|--4--6--2--0--------4--6--2--
D|--5--7--0-----4--0--5--7--0--
A|-----------------------------
E|--3--5--------------3--5-----



E|-----------------------------------------
B|-----------------------------------------
G|--4--6--2--0--------4--6--2--2--2--2--2--
D|--5--7--0-----4--0--5--7--0--0--0--0--0--
A|-----------------------------------------
E|--3--5--------------3--5-----------------



E|--------------------------------------------
B|--------------------------------------------
G|--------------------------------------------
D|--5--7--12----------------------------------
A|--5--7--12------9h10--9--9--9------9h10--9--
E|--3--5--10--10-----------------10-----------




E|------------
B|------------
G|------------
D|--5--7--12--
A|--5--7--12--
E|--3--5--10--



E|-------------------------------
B|-------------------------------
G|-------------------------------
D|--5--7---------------5--7--12--
A|--5--7---------------5--7--12--
E|--3--5--10--9--7--5--3--5--10--



E|--------------------------
B|--------------------------
G|--4--6--2--0--------6--2--
D|--------0-----4--0-----0--
A|--------------------------
E|--3--5--------------5-----



E|-------------------------------
B|-------------------------------
G|--4--6--11--9---7--6--4--6--2--
D|--------12--11--9--7--------0--
A|-------------------------------
E|--3--5----------------3--5-----
http://www.guitartabcreator.com
Guitar Tab Creator is intended to store guitar tab created through the tool. It currently does not support in-line text editing. Any text you place in here will be lost. If you need to comment on your tab, please use the "Tab Notes" section located below.