Monument

(/) Slide Up  (\) Slide Down  (h) Hammer On  (p) Pull Off  (b) Bend (r) Release (v) Vibrato


E|-----
B|-----
G|-----
D|-----
A|--4--
E|-----



E|-----
B|-----
G|-----
D|-----
A|--4--
E|-----



E|--------------------------
B|--------------------------
G|--------------------------
D|--------------------------
A|--4-----7-----4-----------
E|-----5-----7-----5--0--7--



E|-------------------------------
B|-------------------------------
G|-------------------------------
D|-------------------------------
A|--4-----------4-----7--7h9-----
E|-----5--0--7-----5----------7--



E|--------------
B|--------------
G|--------------
D|--------------
A|--4-----------
E|-----5--0--4--



E|-----------
B|-----------
G|-----------
D|-----------
A|--4--2-----
E|--------2--



E|--------------------------------------------------
B|--------------------------------------------------
G|--------------------------------------------------
D|--------------------------------------------------
A|--------------------------------------------------
E|--2------2------2------2------2----2----2----2----



E|---------------------------------
B|---------------------------------
G|---------------------------------
D|---------------------------------
A|---------------------------------
E|-2-2-2-2-2-2-2-2-2-2-2-2-2-2-2-2-



E|-----------------------------------------------
B|-----------------------------------------------
G|-----------------------------------------------
D|-----------------------------------------------
A|-------------------------------7-7-7-7-7-7-7-7-
E|-2-2-2-2-2-2-2-5-5-5-5-5-5-5-5-0-0-0-0-0-0-0-0-



E|-----------------
B|-----------------
G|-----------------
D|-----------------
A|-9-9-9-9-9-9-9-9-
E|-7-7-7-7-7-7-7-7-



E|-------------------------------------
B|-------------------------------------
G|-------------------------------------
D|---------------------9-9-9-9---------
A|-11-11-11-11-7-7-7-7-7-7-7-7-9-9-9-9-
E|-9--9--9--9--5-5-5-5---------7-7-7-7-



E|-------------------------------------
B|-------------------------------------
G|-------------------------------------
D|-------------------------------------
A|-11-11-11-11-7-7-7-7-9-9-9-9-4-4-4-4-
E|-9--9--9--9--5-5-5-5-7-7-7-7-2-2-2-2-



E|--------------
B|--------------
G|--------------
D|--------------
A|--------7-----
E|--2--5-----7--
http://www.guitartabcreator.com
Guitar Tab Creator is intended to store guitar tab created through the tool. It currently does not support in-line text editing. Any text you place in here will be lost. If you need to comment on your tab, please use the "Tab Notes" section located below.