Giants

(/) Slide Up  (\) Slide Down  (h) Hammer On  (p) Pull Off  (b) Bend (r) Release (v) Vibrato
E|------------------------------------------
B|------------------------------------------
G|------------------------------------------
D|------------------------------------------
A|--4h6-----6p4-----------------------------
E|-------4-------4------4h7--0--7p4--0------



E|----------------------------------------------------
B|----------------------------------------------------
G|-----------------------------------9----------9-----
D|--------------------------------------9----------9--
A|--2/4--2------------2/4--4/6--6/7--------6/7--------
E|----------4--0--------------------------------------



E|--------------------------------------------------------------------------
B|--------------------------------------------------------------------------
G|--------------------------------------------------------------------------
D|--------------------------------------------------8--9--------------9--6--
A|--------------4--6--------------6--4--7--7--7--7--------7--7--7--7--------
E|--4--4--4--4--------4--4--4--4--------0-----------------------------------



E|--------------------------------------------------------------------------------
B|--------------------------------------------------------------------------------
G|--------------------------------------------------------------------------------
D|----------------4--6----------------4--6----------------------------------------
A|--2/4--4--4--4--------2/4--4--4--4--------4/6--6--6--6--6--6--7--7--7--6--6--6--
E|--------------------------------------------------------------------------------



E|-----------------------------
B|-----------------------------
G|-----------------------------
D|-----------------------------
A|--12------11-----------------
E|------------------12------9--



E|----------------------------------------------------
B|----------------------------------------------------
G|----------------------------------------------------
D|--7--7--11--11--7--7--11----12--12--12--12--12--12--
A|--7--7--11--11--7--7--11----12--12--12--12--12--12--
E|--5--5--9---9---5--5--9-----10--10--10--10--10--10--



E|--
B|--
G|--
D|--
A|--
E|--
http://www.guitartabcreator.com
Guitar Tab Creator is intended to store guitar tab created through the tool. It currently does not support in-line text editing. Any text you place in here will be lost. If you need to comment on your tab, please use the "Tab Notes" section located below.