Eden

(/) Slide Up  (\) Slide Down  (h) Hammer On  (p) Pull Off  (b) Bend (r) Release (v) Vibrato


E|--------------------------------------------------
B|--------------------------------------------------
G|--------------------------------------------------
D|--------------------------------------------------
A|--0---------0-------------0-------------0---------
E|-----0-------------0-------------0-------------0--



E|--------------------------------------
B|--------------------------------------
G|--------------------9--9--9--9--9--9--
D|--7--7--7--7--7--7--9--9--9--9--9--9--
A|--7--7--7--7--7--7--7--7--7--7--7--7--
E|--5--5--5--5--5--5--0--0--0--0--0--0--



E|---------------------------------------------------
B|---------------------------------------------------
G|---------------------------------------------------
D|---------------------------------------------------
A|---------------------------------------------------
E|--5--1--8--3--10--5--8--1--0--1--0--1--0--0--0--0--



E|---------------------------------------------------
B|---------------------------------------------------
G|---------------------------------------------------
D|---------------------------------------------------
A|---------------------------------------------------
E|--5--1--8--3--10--5--8--1--0--1--0--1--0--0--0--0--



E|--------------------------------------------------
B|--------------------------------------------------
G|--------------------------------------------------
D|--------------------------------------------------
A|--------------------------------------------------
E|--5--5--1--1--5--5--1--1--5--5--1--1--5--5--1--1--



E|--------------------------------------------------------------------------
B|--------------------------------------------------------------------------
G|--------------------------------------------------------------------------
D|--------------------------------------------------------------------------
A|--------------------------------------------------------------------------
E|--5--5--5--5--5--5--1--1--1--1--1--1--5--5--5--5--5--5--1--1--1--1--1--1--



E|--------------------------------------------------
B|--------------------------------------------------
G|--------------------------------------------------
D|--14--14--14--14--14--14--------------------------
A|--12--12--12--12--12--12--15--15--15--12--12--12--
E|--------------------------13--13--13--10--10--10--
http://www.guitartabcreator.com
Guitar Tab Creator is intended to store guitar tab created through the tool. It currently does not support in-line text editing. Any text you place in here will be lost. If you need to comment on your tab, please use the "Tab Notes" section located below.