Drop Everything

(/) Slide Up  (\) Slide Down  (h) Hammer On  (p) Pull Off  (b) Bend (r) Release (v) Vibrato


E|----------------
B|----------------
G|----------------
D|--8--3--10--12--
A|--6--1--8---10--
E|----------------



E|--------------
B|--------------
G|--------------
D|--8--3--4--3--
A|--6--1--2--1--
E|--------------



E|--------------------------
B|--------------------------
G|--------------------------
D|--------------------------
A|--3--6--------3--8--------
E|--------6--4--------6--4--



E|-------------------------------------------
B|-------------------------------------------
G|-------------------------------------------
D|-------------------------------------------
A|--3--6--------3--8-------------------------
E|--------6--4--------6--4--1h3--4--3--1--3--



E|-----------------------------------------------------------------
B|-----------------------------------------------------------------
G|-----------------------------------------------------------------
D|-----------------------------------------------------------------
A|--3--6-----------------------------------------------------------
E|--------6--4--3--3--3--3--3--3--3--3--3--3--3--3--3--3--3--3--3--



E|-------------------------------------------------------------------------------------------------
B|-------------------------------------------------------------------------------------------------
G|-------------------------------------------------------------------------------------------------
D|-------------------------------------------------------------------------------------------------
A|--3--3--3--3--3--3--3--3--3--3--3--3--3--3--3--3h5-----------------------------------------------
E|----------------------------------------------------3--3--3--3--3--3--3--3--3--3--3--3--3--3--3--



E|--
B|--
G|--
D|--
A|--
E|--
http://www.guitartabcreator.com
Guitar Tab Creator is intended to store guitar tab created through the tool. It currently does not support in-line text editing. Any text you place in here will be lost. If you need to comment on your tab, please use the "Tab Notes" section located below.