Composition

(/) Slide Up  (\) Slide Down  (h) Hammer On  (p) Pull Off  (b) Bend (r) Release (v) Vibrato


E|------------------------------------------------------------------------------------------------------------
B|------------------------------------------------------------------------------------------------------------
G|----------------------------------------------------------------------------------------------------12------
D|--12--------------------------12--------------------------12--------------------------------12--14------14--
A|--------14----12--14--12------------14----12--14--12------------14----12--14--12----12--14------------------
E|--------------------------15--------------------------15----------------------------------------------------



E|------------------------------------------------------------------------------------------------------------
B|------------------------------------------------------------------------------------------------------------
G|----------------------------------------------------------------------------------------------------12------
D|--12--------------------------12--------------------------12--------------------------------12--14------14--
A|--------14----12--14--12------------14----12--14--12------------14----12--14--12----12--14------------------
E|--------------------------15--------------------------15----------------------------------------------------



E|------------------------------------------------------------------------------------------------------------
B|------------------------------------------------------------------------------------------------------------
G|----------------------------------------------------------------------------------------------------12------
D|--12--------------------------12--------------------------12--------------------------------12--14------14--
A|--------14----12--14--12------------14----12--14--12------------14----12--14--12----12--14------------------
E|--------------------------15--------------------------15----------------------------------------------------



E|------------------------------------------------------------------------------------
B|------------------------------------------------------------------------------------
G|------------------------------------------------------------------------------------
D|--------------12----------------14--------------12--------------------14--12--------
A|--12--14--12--------12--14--12------12--14--12------14----12--14--12----------14----
E|------------------------------------------------------------------------------------



E|------------------------------------------------------------------------------------
B|------------------------------------------------------------------------------------
G|------------------------------------------------------------------------------------
D|--------------12----------------14--------------12--------------------14--12--------
A|--12--14--12--------12--14--12------12--14--12------14----12--14--12----------14----
E|------------------------------------------------------------------------------------



E|------------------------------------------------------------------------------------------------
B|-------------------------------------------------------------------------------------12--15b12--
G|----------12v------------12--14b12----11h12p14----12--------------------------14b14-------------
D|--12--14---------12--14-------------------------------14--12--------------12--------------------
A|--------------------------------------------------------------14--12--14------------------------
E|------------------------------------------------------------------------------------------------



E|------------------------------------------------------------------------------------------------------------
B|------------------------------------------------------------------------------------------------------------
G|----------------------------------------------------------------------------------------------------12------
D|--12--------------------------12--------------------------12--------------------------------12--14------14--
A|--------14----12--14--12------------14----12--14--12------------14----12--14--12----12--14------------------
E|--------------------------15--------------------------15---------------------------------------------------- http://www.guitartabcreator.com
Guitar Tab Creator is intended to store guitar tab created through the tool. It currently does not support in-line text editing. Any text you place in here will be lost. If you need to comment on your tab, please use the "Tab Notes" section located below.