mike groisman taping -jumping

(/) Slide Up  (\) Slide Down  (h) Hammer On  (p) Pull Off  (b) Bend (r) Release (v) Vibrato

E|--------------------------10----------
B|--------------10--12--20------12------
G|----------------------------------19--
D|------12--17--------------------------
A|--10----------------------------------
E|--------------------------------------



E|--------------------------10--14--17--
B|--------------10--12--20--------------
G|--------------------------------------
D|------12--17--------------------------
A|--10----------------------------------
E|--------------------------------------



E|------------------------------------------
B|--------------10--15--17--19--17--15--10--
G|------------------------------------------
D|------12--17------------------------------
A|--10--------------------------------------
E|------------------------------------------
http://www.guitartabcreator.com
Guitar Tab Creator is intended to store guitar tab created through the tool. It currently does not support in-line text editing. Any text you place in here will be lost. If you need to comment on your tab, please use the "Tab Notes" section located below.