Michael Angelo Batio - Tapping 2#

(/) Slide Up  (\) Slide Down  (h) Hammer On  (p) Pull Off  (b) Bend (r) Release (v) Vibrato

E|---------------10-5-8-
B|----------------------
G|--------11-5-7--------
D|----------------------
A|-12-5-9---------------
E|----------------------



E|-10-8-5---------------
B|----------------------
G|--------11-7-5--------
D|----------------------
A|---------------12-9-5-
E|----------------------



E|-----------------14-8-11-
B|-------------------------
G|---------14-8-11---------
D|-------------------------
A|-15-9-12-----------------
E|-------------------------



E|--14--11--8------------------------
B|-----------------------------------
G|-------------14--11--8-------------
D|-----------------------------------
A|------------------------15--12--9--
E|-----------------------------------
http://www.guitartabcreator.com
Guitar Tab Creator is intended to store guitar tab created through the tool. It currently does not support in-line text editing. Any text you place in here will be lost. If you need to comment on your tab, please use the "Tab Notes" section located below.