Michael Angelo Batio - Taping 1#

(/) Slide Up  (\) Slide Down  (h) Hammer On  (p) Pull Off  (b) Bend (r) Release (v) Vibrato

E|-------------------15-10-14-
B|----------------------------
G|----------16-11-12----------
D|----------------------------
A|-17-10-14-------------------
E|----------------------------



E|-15-14-10-------------------
B|----------------------------
G|----------16-12-11----------
D|----------------------------
A|-------------------17-14-10-
E|----------------------------



E|----------------12-7-10-
B|------------------------
G|---------12-7-9---------
D|------------------------
A|-14-7-10----------------
E|------------------------



E|--12--10--7-----------------------
B|----------------------------------
G|-------------12--9--7-------------
D|----------------------------------
A|-----------------------14--10--7--
E|----------------------------------
http://www.guitartabcreator.com
Guitar Tab Creator is intended to store guitar tab created through the tool. It currently does not support in-line text editing. Any text you place in here will be lost. If you need to comment on your tab, please use the "Tab Notes" section located below.