Arpeggios from hell - Yngwie Malmasteen 3

(/) Slide Up  (\) Slide Down  (h) Hammer On  (p) Pull Off  (b) Bend (r) Release (v) Vibrato


E|-15-12----12-15-14-11----14-15-12----12-15-14-11----14-15-12----12-15-14-11----14-15-12----12-15-14-
B|-------12-------------12----------12-------------12----------12-------------12----------12----------
G|----------------------------------------------------------------------------------------------------
D|----------------------------------------------------------------------------------------------------
A|----------------------------------------------------------------------------------------------------
E|----------------------------------------------------------------------------------------------------



E|-15-14-12------------------------------------------------
B|----------16-13-12---------------------------------------
G|-------------------14-12-11-9----------------------------
D|------------------------------13-10-9-7------------------
A|----------------------------------------10-9-7-6---------
E|-------------------------------------------------8-7-5-0-
http://www.guitartabcreator.com
Guitar Tab Creator is intended to store guitar tab created through the tool. It currently does not support in-line text editing. Any text you place in here will be lost. If you need to comment on your tab, please use the "Tab Notes" section located below.