Arpeggios from hell - Yngwie Malmasteen 2

(/) Slide Up  (\) Slide Down  (h) Hammer On  (p) Pull Off  (b) Bend (r) Release (v) Vibrato


E|-15-18-15-------------------------------------------------------------
B|----------17----17----------------------------------------------------
G|-------------18----18-15-18-15----15----------------------------------
D|-------------------------------17----17-14-17-14----14----------------
A|-------------------------------------------------16----16-13-16-13----
E|-------------------------------------------------------------------15-



E|-14-17-14-------------------------------------------------------------
B|----------16----16----------------------------------------------------
G|-------------17----17-14-17-14----14----------------------------------
D|-------------------------------16----16-13-16-13----13----------------
A|-------------------------------------------------15----15-12-15-12----
E|-------------------------------------------------------------------14-




A|-
E|-



E|-
B|-
G|-
D|-
A|-
E|-
http://www.guitartabcreator.com
Guitar Tab Creator is intended to store guitar tab created through the tool. It currently does not support in-line text editing. Any text you place in here will be lost. If you need to comment on your tab, please use the "Tab Notes" section located below.