Arpeggios from hell - Yngwie Malmasteen

(/) Slide Up  (\) Slide Down  (h) Hammer On  (p) Pull Off  (b) Bend (r) Release (v) Vibrato


E|---------------------------------------------7---7-12-7-12-
B|---------------------------------------8---8---8-----------
G|---------------------------4---4-9-4-9---9-----------------
D|---------------------5---5---5-----------------------------
A|---------2---2-7-2-7---7-----------------------------------
E|-0-3-0-3---3-----------------------------------------------



E|-15-14-12-15-14-12-19-15----------------------------------------------------
B|-------------------------17----17-------------------------------------------
G|----------------------------16----16----16----------------------------------
D|-------------------------------------17----17----17-------------------------
A|----------------------------------------------19----19-14-19-14----14-------
E|----------------------------------------------------------------15----15-12-



E|-------------------------------------12----12-17-
B|----------------------------13----13----13-------
G|-------------9----9-14-9-14----14----------------
D|----10----10---10--------------------------------
A|-12----12----------------------------------------
E|-------------------------------------------------
http://www.guitartabcreator.com
Guitar Tab Creator is intended to store guitar tab created through the tool. It currently does not support in-line text editing. Any text you place in here will be lost. If you need to comment on your tab, please use the "Tab Notes" section located below.