8 fingers

(/) Slide Up  (\) Slide Down  (h) Hammer On  (p) Pull Off  (b) Bend (r) Release (v) Vibrato


E|------------------11----------13------------------13----------15------------------15----------16--
B|--------------13------------------------------15------------------------------16------------------
G|----------12----------13--12--------------13----------15--13--------------15----------17--15------
D|------13------------------------------15------------------------------17--------------------------
A|--11------------------------------13------------------------------15------------------------------
E|--------------------------------------------------------------------------------------------------



E|--------------16--15----------18--
B|----------------------------------
G|----------15----------17--15------
D|------17--------------------------
A|--15------------------------------
E|----------------------------------
http://www.guitartabcreator.com
Guitar Tab Creator is intended to store guitar tab created through the tool. It currently does not support in-line text editing. Any text you place in here will be lost. If you need to comment on your tab, please use the "Tab Notes" section located below.