St Stephen Intro

(/) Slide Up  (\) Slide Down  (h) Hammer On  (p) Pull Off  (b) Bend (r) Release (v) Vibrato

E|----------------------------10--9----------------------------------10--9------11--11--
B|----------9--10--12--10--9---------10--12--12----9--10--12--10--9---------10----------
G|--11--11------------------------------------------------------------------------------
D|--------------------------------------------------------------------------------------
A|--------------------------------------------------------------------------------------
E|--------------------------------------------------------------------------------------



E|--9--10--12--10--12----10--9------12--12----10--9--10--9--7--|--7--5--4--|--5--4--2--0--0--
B|------------------------------12-----------------------------|-----------|-----------------
G|-------------------------------------------------------------|-----------|-----------------
D|-------------------------------------------------------------|-----------|-----------------
A|-------------------------------------------------------------|-----------|-----------------
E|-------------------------------------------------------------|-----------|-----------------
http://www.guitartabcreator.com
Guitar Tab Creator is intended to store guitar tab created through the tool. It currently does not support in-line text editing. Any text you place in here will be lost. If you need to comment on your tab, please use the "Tab Notes" section located below.