Our Struggle

Intro
E|--------------------------
B|--------------------------
G|--------------------------
D|--------------------------
A|-----4--6--8-----4--6--8--
E|--6-----------6-----------


Chorus "OUR STRUGGLE"
E|-----------------------------
B|-----------------------------
G|-----------------------------
D|-----------------------------
A|--------4--6--8--8--8--8--8--
E|--6--6-----------------------


Verse "So they all think they got us down - WELL THEY DON'T"
E|--------------------------------------------------------------------------
B|--------------------------------------------------------------------------
G|--------------------------------------------------------------------------
D|--------------------------------------------------------------------------
A|--------------------4--4--4--4--4--4--6--6--6--6--6--6--------------------
E|--6--6--6--6--6--6--------------------------------------4--4--4--2--2--2--


Bridge
E|--------------------------------------------------------------------------------------------------
B|--------------------------------------------------------------------------------------------------
G|--------------------------------------------------------------------------------------------------
D|--------------------------------------------------------------------------------------------------
A|--------------------4--4--------------4--4--6-----------------------4--4--6--6--6--6--8--8--8--8--
E|--6--6--6--6--6--6--------6--6--6--6-----------4--6--6--6--6--6--6--------------------------------


Outro "THIS - IS - OUR STRUGGLE"
E|--------------------------------------------------------------------------------------------
B|--------------------------------------------------------------------------------------------
G|--------------------------------------------------------------------------------------------
D|--------------------------------------------------------------------------------------------
A|--------------------4--------------------4--------------------4--4--6--6--6--6--8--8--8--8--
E|--6--6--6--6--6--6-----6--6--6--6--6--6-----6--6--6--6--6--6--------------------------------


Intro
Chorus x4
Verse x4
Bridge x2
Chorus x4
Verse x4
Bridge x2
Chorus x4
Outro x2

Probably going to add more stuff
eventually for the sake of the
song to make it sound a little
cooler. But, I will have the
recording up soon w/ vocals
too so you can hear how its
meant to sound.

If you have any ideas,
lemme know!
Guitar Tab Creator is intended to store guitar tab created through the tool. It currently does not support in-line text editing. Any text you place in here will be lost. If you need to comment on your tab, please use the "Tab Notes" section located below.