My Way Out

(/) Slide Up  (\) Slide Down  (h) Hammer On  (p) Pull Off  (b) Bend (r) Release (v) Vibrato

Beginning intro thing
E|-----------------------------------------------------
B|-----------------------------------------------------
G|-----------------------------------------------------
D|-----------------------------------------------------
A|-----------------------------------------------3--1--
E|--3--5--5--5--5--3--5--5--5--5--3--5--5--5--5--------


Main Riff
E|-----------------------------------------------------------
B|-----------------------------------------------------------
G|-----------------------------------------------------------
D|-----------------------------------------------------------
A|--------------------------1--1--1--3--3--3--4--3--1--1--1--
E|--3--3--3--3--3--3--3--3-----------------------------------


1st Half of Chorus "My Way Out!"
E|--------------------------
B|--------------------------
G|--------------------------
D|--------------------------
A|--------------4--4--3--3--
E|--3--3--3--3--------------


2nd Half of Chorus "Think you had me - YOU'RE WRONG."
E|--------------------------------------------------
B|--------------------------------------------------
G|--------------------------------------------------
D|--------------------------------------------------
A|--------------1--1--1--1--3--3--3--3--4--4--4--4--
E|--3--3--3--3--------------------------------------


Ending Breakdown, "MY WAY OUT"
E|--------------------------------------------------
B|--------------------------------------------------
G|--------------------------------------------------
D|--------------------------------------------------
A|--------------4--4--4--4--3--3--3--3--1--1--1--1--
E|--3--3--3--3--------------------------------------
http://www.guitartabcreator.com
Guitar Tab Creator is intended to store guitar tab created through the tool. It currently does not support in-line text editing. Any text you place in here will be lost. If you need to comment on your tab, please use the "Tab Notes" section located below.