Don't Think So BASS TAB

(/) Slide Up  (\) Slide Down  (h) Hammer On  (p) Pull Off  (b) Bend (r) Release (v) Vibrato
INTRO X4

E|-----------------------------------------------
B|-----------------------------------------------
G|-----------------------------------------------
D|-----------------------------------------------
A|-----------5--5--5--5--7--7--7--8--8--8--9--9--
E|--3--3--3--------------------------------------


VERSE X4
E|----------------------------------------------------
B|----------------------------------------------------
G|----------------------------------------------------
D|----------------------------------------------------
A|----------------3--3--3--3--5--5--5--5--------------
E|----5--5--5--5--------------------------0--0--0--0--


CHORUS 1ST HALF X2
E|--------------------------------------------------
B|--------------------------------------------------
G|--------------------------------------------------
D|--------------------------------------------------
A|--------------7--7--7--7--5--5--5--5--3--3--3--3--
E|--0--0--0--0--------------------------------------


CHORUS 2ND HALF X2
E|--------------------------------------------------
B|--------------------------------------------------
G|--------------------------------------------------
D|--------------------------------------------------
A|--------------5--5--5--5--3--3--3--3--7--7--7--7--
E|--0--0--0--0--------------------------------------

Breakdown of Chorus:
Chorus is divided into two halves that change up:
First Half x1 Second Half x1 First Half x1 Second Half x1
This is the COMPLETED Chorus, just make sure to change it up.

BREAKDOWN OF SONG:

Intro
Verse
Chorus
Intro
Verse
Chorus
Maybe Intro?
http://www.guitartabcreator.com
Guitar Tab Creator is intended to store guitar tab created through the tool. It currently does not support in-line text editing. Any text you place in here will be lost. If you need to comment on your tab, please use the "Tab Notes" section located below.