The Wit and The Wisdom

(/) Slide Up  (\) Slide Down  (h) Hammer On  (p) Pull Off  (b) Bend (r) Release (v) Vibrato


E|------------------------
B|------------------------
G|--12--8--9--5--6--3--4--
D|------------------------
A|--10--6--7--3--4--1--2--
E|------------------------



E|---------------------
B|---------------------
G|--4--7--6--9---8--6--
D|--5--8--7--10--9--8--
A|--2--5--4--7---6--5--
E|--3--6--5--8---7--6--
http://www.guitartabcreator.com
Guitar Tab Creator is intended to store guitar tab created through the tool. It currently does not support in-line text editing. Any text you place in here will be lost. If you need to comment on your tab, please use the "Tab Notes" section located below.