Last Song Solo

(/) Slide Up  (\) Slide Down  (h) Hammer On  (p) Pull Off  (b) Bend (r) Release (v) Vibrato


E|-----------------------------------------------------------------
B|-----------------------5--3--------------------------------------
G|--4--4------4--2----0--------4--0------0--2--0--4--0--2--0-------
D|-----------------------------------------------------------------
A|-----------------------------------------------------------------
E|-----------------------------------------------------------------



E|-----------------------------------------------------------
B|--3--0--3--4--0-----0--5--0-----0--------------------------
G|-----------------2-----------2-----0--0--2--0--3--0--2--0--
D|-----------------------------------------------------------
A|-----------------------------------------------------------
E|-----------------------------------------------------------



E|-------------------------------------------------------------------
B|-------------------------------------------------------------------
G|--4--2--0--2--0--4--2--0------------0-----0-------3--2--0--2--0----
D|--------------------------2------2-----2-----2---------------------
A|-------------------------------------------------------------------
E|-------------------------------------------------------------------



E|-----------0-----0--3--0--3--0------5--5------6--
B|--3--0--3-----3---------------------5--5------6--
G|-------------------------------------------------
D|-------------------------------------------------
A|-------------------------------------------------
E|-------------------------------------------------
http://www.guitartabcreator.com
Guitar Tab Creator is intended to store guitar tab created through the tool. It currently does not support in-line text editing. Any text you place in here will be lost. If you need to comment on your tab, please use the "Tab Notes" section located below.