G mclaughlin scal - 6 note altered mixolydian

(/) Slide Up  (\) Slide Down  (h) Hammer On  (p) Pull Off  (b) Bend (r) Release (v) Vibrato


E|--------------------------------------3--4--7--
B|--------------------------------3--6-----------
G|--------------------------4--5-----------------
D|-----------------3--5--6-----------------------
A|--------2--3--5--------------------------------
E|--3--4-----------------------------------------



E|----------------------------------------10--13--15--
B|-----------------------------9--12--13--------------
G|---------------------10--12-------------------------
D|----------9--10--12---------------------------------
A|--10--11--------------------------------------------
E|----------------------------------------------------
http://www.guitartabcreator.com
Guitar Tab Creator is intended to store guitar tab created through the tool. It currently does not support in-line text editing. Any text you place in here will be lost. If you need to comment on your tab, please use the "Tab Notes" section located below.