Its Not Fair - The Same Mistakes

(/) Slide Up  (\) Slide Down  (h) Hammer On  (p) Pull Off  (b) Bend (r) Release (v) Vibrato

E|--------0-----------0-----------0-----------0-----
B|-----------1-----1-----1-----------1-----------1--
G|-----2--------0--------------2-----------2--------
D|--------------------------3-----------3-----------
A|--0-----------------------------------------------
E|--------------------------------------------------



E|--------0-----------0--------------3--0--------0--------------------0--
B|-----6-----6-----6-----6--------1--------1--------1--1--0--------0-----
G|-----------------------------2--------------0-----------------1--------
D|--0-----------0--------------------------------------------------------
A|--------------------------0--------------------------------------------
E|-----------------------------------------------------------0-----------



E|--------------0-----------------------0-----------------------0-----------------------0-----------
B|--------0--------0--------------0--------0--------------0--------0--------------0--------0--------
G|-----5-----5--------5--------5-----5--------5--------5-----5--------5--------5-----5--------5-----
D|-----------------------7--6--------------------6--5--------------------5--4--------------------4--
A|--0-----------------------------------------------------------------------------------------------
E|--------------------------------------------------------------------------------------------------
http://www.guitartabcreator.com
Guitar Tab Creator is intended to store guitar tab created through the tool. It currently does not support in-line text editing. Any text you place in here will be lost. If you need to comment on your tab, please use the "Tab Notes" section located below.