Y.M.V

(/) Slide Up  (\) Slide Down  (h) Hammer On  (p) Pull Off  (b) Bend (r) Release (v) Vibrato

This going to be the tab that will annoy you the most I think, because there's pretty much nothing in it, and also you'll probably find I've done a terrible job at the amounts of times chords are used. If you read it while playing along to the demo you should be ok. The song structure is a little different now, where after the solo it does two intro riffs instead of going back to the chorus. So if you just learn all the parts, up till the end of the solo, I can guide you when we actually jam it.

Intro: Played twice

E|---------------------------------------------------------------------------------------
B|---------------------------------------------------------------------------------------
G|-9-9-9-9-9-9-7-7-7-7-7-9-9-9-9-9-9-7-7-7-7-7-9-9-9-9-9-9-7-7-7-7-7-9-9-9---------------
D|-9-9-9-9-9-9-7-7-7-7-7-9-9-9-9-9-9-7-7-7-7-7-9-9-9-9-9-9-7-7-7-7-7-9-9-9---------------
A|-7-7-7-7-7-7-5-5-5-5-5-7-7-7-7-7-7-5-5-5-5-5-7-7-7-7-7-7-5-5-5-5-5-7-7-7---------------
E|-------------------------------------------------------------------------7-7-7-5-7-3-0-

Verse: Played twice

E|---------------------------------------------------------------------------
B|---------------------------------------------------------------------------
G|---------------------------------5-5-----------------------------5-5-5/7-7-
D|-2-2-2-2-2-2-2-----2-2-2-2-2-2-2-5-5-2-2-2-2-2-2-2-----2-2-2-2-2-----------
A|-2-2-2-2-2-2-2-----2-2-2-2-2-2-2-3-3-2-2-2-2-2-2-2-----2-2-2-2-2-3-3-3-5-5-
E|-0-0-0-0-0-0-0-3p0-0-0-0-0-0-0-0-----0-0-0-0-0-0-0-3p0-0-0-0-0-0-----------

Verse lead line: This is a little lick that I made up when making the demo, that gets played over the second half of the verse. It's up to you if you want to use it, or come up with something different along those lines. It just kind of lifts the verse as the chorus gets nearer.

E|---------------------------------------------------------------------
B|---------------------------------------------------------------------
G|---------------------------------------------------------------------
D|-----9-7-----9-7-----9-7-------------9-7-----9-7-----9-7-----9/12-12-
A|-7-7-----7-7-----7-7-----7-7-9-7-7-7-----7-7-----7-7-----7-7---------
E|---------------------------------------------------------------------

Chorus: Played twice. Maybe we can come up with a guitar parts that gel here (once of us playing power chords, and the other open chords?), but this is what I play anyway,

E|-----------------------------------------------------------------------------------
B|-------------12--------------------------------------------------------------------
G|-9-9-7-12-12-12-12-12-7-7-7-------------9-9-7-12-12-12-12-12-7-7-7-----------------
D|-9-9-7-12-12-12-12-12-7-7-7-7-7-7-7-7-7-9-9-7-12-12-12-12-12-7-7-7---------5p0-----
A|-7-7-5-10-10-10-10-10-5-5-5-7-7-7-7-7-7-7-7-5-10-10-10-10-10-5-5-5-----5h7-----5h7-
E|----------------------------5-5-5-5-5-5----------------------------5h7-------------


So the new song structure that we'd jam is this:

Intro
Verse
Chorus
Mini Intro with pause for mini solo lick
Verse
Chorus
Solo
Intro



http://www.guitartabcreator.com
Guitar Tab Creator is intended to store guitar tab created through the tool. It currently does not support in-line text editing. Any text you place in here will be lost. If you need to comment on your tab, please use the "Tab Notes" section located below.