Too Much, Too Little

(/) Slide Up  (\) Slide Down  (h) Hammer On  (p) Pull Off  (b) Bend (r) Release (v) Vibrato

Intro: After 4 bars of drums by themselves, a big huge E minor chord that rings out into feedback, while I do a little ascending guitar line. You'd be able to muck around with effect pedals, pick scrapes, slides, wah, whatever you want during the intro, kind of like a sonic craziness before we all come back together on another E minor hang.

E|-----
B|-----
G|-----
D|--2--
A|--2--
E|--0--

Prechorus rhythm part: Palm muted, slowly being turned into straight played chords as the chorus gets closer.

E|------------------------------------------------------------------------------
B|------------------------------------------------------------------------------
G|------------------------------------------------------------------------------
D|--5--5--5--5--5--5--5--5--7--7--7--7--7--7--7--7--9--9--9--9--12--12--12--12--
A|--5--5--5--5--5--5--5--5--7--7--7--7--7--7--7--7--9--9--9--9--12--12--12--12--
E|--3--3--3--3--3--3--3--3--5--5--5--5--5--5--5--5--7--7--7--7--10--10--10--10--

Prechorus lead (optional): This is something I played when doing the garageband demo, you can choose to play it, change it or ditch it all together. I just thought it made it more interesting to have two different guitar parts, so that we wouldn't play the same thing.

E|--------------------------------------------------------------------------------------------------
B|--------0-----------0-----------0-----------0-----------0-----------0-----------0-----------0-----
G|-----------0-----------0-----------0-----------0-----------0-----------0-----------0-----------0--
D|-----------------------------------------------------5-----------5-----------7-----------7--------
A|-----2-----------2-----------2-----------2--------3-----------3-----------5-----------5-----------
E|--0-----------0-----------0-----------0-----------------------------------------------------------

Chorus: Played 4 times, with an E minor at the end of the forth, which is let to ring out.

E|-----0-----------------------
B|-----0-----------------------
G|--------0--------5--5--7--7--
D|--2--------2-----5--5--7--7--
A|--2-----------2--3--3--5--5--
E|--0--------------------------

Interlude: Just a little harmonized guitar part that I play to bridge the gap between chorus and returning to the verse. You could double it, harmonize with it, or play an E minor under it, up to you.

E|-------------------------------------------
B|-------------------------------------------
G|--12--11--9--9--7--9--7--7-----------------
D|-------------------------7--7--9--7--5--2--
A|--10--9---7--7--5--7--5--5--------------2--
E|-------------------------5--5--7--5--3--0--

Second prechorus lead (optional): Same as the first prechorus, a random lead line I came up with.


E|------------------------------------------------------------------
B|----------12--------------12--------------12--------------12------
G|------12------12------12------12------12------12------12------12--
D|--14--------------14--------------14--------------14--------------
A|------------------------------------------------------------------
E|------------------------------------------------------------------



E|----------------------------------------------------------------
B|----------------------------------------------------------------
G|---------8------------8-------------10--------------10------12--
D|------9-----9------9-----9------11------11------11------11--12--
A|--10-----------10-----------12--------------12--------------14--
E|----------------------------------------------------------------

Bridge before solo:

E|--------------------------------------------------------------
B|--------------------------------------------------------------
G|--5--5--5--5--7--7--7--7--5--5--5--5--7--7--7--7--7--7--7--7--
D|--5--5--5--5--7--7--7--7--5--5--5--5--7--7--7--7--7--7--7--7--
A|--3--3--3--3--5--5--5--5--3--3--3--3--5--5--5--5--5--5--5--5--
E|--------------------------------------------------------------

Second Bridge/Breakdown:

E|--------------------------
B|--------------------------
G|--5--5--5--5--7--7--7--7--
D|--5--5--5--5--7--7--7--7--
A|--3--3--3--3--5--5--5--5--
E|--------------------------


Song Structure:

Intro
Verse
Prechorus
Chorus
Interlude
Verse
Prechorus
Chorus
Bridge
Solo
Second Bridge/Breakdown
Chorus (repeated till we decide to end the outro jam/solo)
http://www.guitartabcreator.com
Guitar Tab Creator is intended to store guitar tab created through the tool. It currently does not support in-line text editing. Any text you place in here will be lost. If you need to comment on your tab, please use the "Tab Notes" section located below.