Straw, Sticks & Bricks

(/) Slide Up  (\) Slide Down  (h) Hammer On  (p) Pull Off  (b) Bend (r) Release (v) Vibrato


E|----------------------------------------------
B|----------------------------------------------
G|----------------------------------------------
D|-------------------------------------1--1--1--
A|--4h6--6--6--6--4--------------------1--1--1--
E|-------------------6--4--2--2--4--2-----------



E|-------------------------------------------
B|-------------------------------------------
G|-------------------------------------------
D|-------------------------------------------
A|--4h6--6--6--6--4--------4--4--6--6--4--6--
E|-------------------6--4--------------------



E|------------------------------------------------------
B|------------------------------------------------------
G|--6/8--8--8--8--6--8--8--6/8--8--8--8--6--8--8--4--6--
D|--6-8--8--8--8--6--8--8--6-8--8--8--8--6--8--8--4--6--
A|--4-6--6--6--6--4--6--6--4-6--6--6--6--4--6--6--2--4--
E|------------------------------------------------------



E|---------------------------------------------------------------------------------------
B|----------11----------12--11------11------------------9----------11--9------9----------
G|--------------11----------------------11----------10-----10--------------------10------
D|--13--13----------13----------13----------13--11-------------11---------11---------11--
A|---------------------------------------------------------------------------------------
E|---------------------------------------------------------------------------------------



E|-----------------------------------------------------------------------------
B|-----------------------------------------------------------------------------
G|--4--4--4--4--4--4--4--6--6--6--6--6--6--6--6--8--8--8--8--8--8--8--8--8-----
D|--4--4--4--4--4--4--4--6--6--6--6--6--6--6--6--8--8--8--8--8--8--8--8--8-----
A|--2--2--2--2--2--2--2--4--4--4--4--4--4--4--4--6--6--6--6--6--6--6--6--6-----
E|-----------------------------------------------------------------------------



E|--------------------------------------
B|--------------------------------------
G|--4--4--4--4--4--4--6--6--6--6--6--6--
D|--4--4--4--4--4--4--6--6--6--6--6--6--
A|--2--2--2--2--2--2--4--4--4--4--4--4--
E|--------------------------------------
http://www.guitartabcreator.com
Guitar Tab Creator is intended to store guitar tab created through the tool. It currently does not support in-line text editing. Any text you place in here will be lost. If you need to comment on your tab, please use the "Tab Notes" section located below.