Nineteen

(/) Slide Up  (\) Slide Down  (h) Hammer On  (p) Pull Off  (b) Bend (r) Release (v) Vibrato

Intro 1:

E|-------------------------------------------------------------------
B|--------5--5--5--------5--5--5--------5--5--5----------------------
G|--4--6--6--6--6--4--6--6--6--6--4--6--6--6--6--4--6--6--6--6--6--6\
D|--4--6--6--6--6--4--6--6--6--6--4--6--6--6--6--4--6--6--6--6--6--6-
A|--2--4--4--4--4--2--4--4--4--4--2--4--4--4--4--2--4--4--4--4--4--4-
E|-----------------------------------------4-------------------------

Intro 2: Played 4 times with a hang on the last one. Then played 3 times as the verse with ahang after each use.

E|-----------------------------------------------------
B|-----------------------------------------------------
G|--6--6--6--6--9--9--9--9--9--------------4--4--4--4--
D|--6--6--6--6--9--9--9--9--9--4--4--4--4--4--4--4--4--
A|--4--4--4--4--7--7--7--7--7--4--4--4--4--2--2--2--2--
E|-----------------------------2--2--2--2--------------

Prechorus: Played 3 times, palm muted. The four chords at the end are played very tightly, no other noise in between.

E|--------------------------------------------------------
B|--------------------------------------------------------
G|--6--6--6--6--6--6--6--4--4--4--4--4--4-----------------
D|--6--6--6--6--6--6--6--4--4--4--4--4--4--4--4--4--4-----
A|--4--4--4--4--4--4--4--2--2--2--2--2--2--4--4--4--4-----
E|-----------------------------------------2--2--2--2--0--



E|--------------------------------
B|--------------------------------
G|--------------------4--4--4--4--
D|--2--2--2--2--2--2--4--4--4--4--
A|--2--2--2--2--2--2--2--2--2--2--
E|--0--0--0--0--0--0--------------



E|--------------------------------------------------------------
B|--------------------------------------------------------------
G|--6--6--6--6--11--9--9--4--4--6--6--6--6--4--4--4-------------
D|--6--6--6--6--11--9--9--4--4--6--6--6--6--4--4--4-------------
A|--4--4--4--4--9---7--7--2--2--4--4--4--4--2--2--2-------2--2--
E|---------------------------------------------------2h4--------

Song structure: (slightly different now to the one on the demo you have, only difference is the third verse is gone, replaced with a hang after the guitar solo)

Intro 1
Intro 2
Verse
Prechorus
Chorus
Verse
Prechorus
Chorus
Solo
Hang
Chorus
Intro 2


The amounts of times a chord is used wont be 100% accurate, basically when you see the same one used multiple times it just means that chord is used more than once, so you'll have to use your ear when listening to the demo to tell when chord changes happen. http://www.guitartabcreator.com
Guitar Tab Creator is intended to store guitar tab created through the tool. It currently does not support in-line text editing. Any text you place in here will be lost. If you need to comment on your tab, please use the "Tab Notes" section located below.