Hell

(/) Slide Up  (\) Slide Down  (h) Hammer On  (p) Pull Off  (b) Bend (r) Release (v) Vibrato


E|-----------------------------------------
B|-----------------------------------------
G|--2--2--2--2--2--2--2--2--2--2--2--2--2--
D|--2--2--2--2--2--2--2--2--2--2--2--2--2--
A|--0--0--0--0--0--0--0--0--0--0--0--0--0--
E|-----------------------------------------



E|--------------------------------------------------
B|--------------------------------------------------
G|--2--2--2--2-----------2--2--2--2--2--2--2--2--2--
D|--2--2--2--2--3--3--2--2--2--2--2--0--0--0--0--0--
A|--0--0--0--0--0--0--0--3--3--3--3--2--2--0--3--0--
E|--------------------------------------------------



E|-------------------------------
B|-------------------------------
G|--2--2--2--2--2--2-------------
D|--2--2--2--2--2--2-------------
A|--0--0--0--0--0--0--0--0--3p0--
E|-------------------------------



E|--------------------------------------
B|--------------------------------------
G|--5--5--5--5--5--5--7--7--7--7--7--7--
D|--5--5--5--5--5--5--7--7--7--7--7--7--
A|--3--3--3--3--3--3--5--5--5--5--5--5--
E|--------------------------------------

Intro: Played twice. then flipped for chorus.

E|---------------------------------------------------------------------------------
B|---------------------------------------------------------------------------------
G|--2--2--2--2--2--2--2--2--5--5--5--5--5--5---------------------2--2--2--2--2--2--
D|--2--2--2--2--2--2--2--2--5--5--5--5--5--5---------------------2--2--2--2--2--2--
A|--0--0--0--0--0--0--0--0--3--3--3--3--3--3--2--2--2--2h3p2--0--0--0--0--0--0--0--
E|---------------------------------------------------------------------------------



E|--------------------------------------------------
B|--------------------------------------------------
G|--2--2--5--5--5--5--5--9--7--7--7--7--7--7--7--7--
D|--2--2--5--5--5--5--5--9--7--7--7--7--7--7--7--7--
A|--0--0--3--3--3--3--3--7--5--5--5--5--5--5--5--5--
E|--------------------------------------------------


Breakdown: played four times
E|--------------------------------------------------------------
B|--------------------------------------------------------------
G|--5--5--7--5--5--5--5--7--5--5--5--4--4--5--4--2--2--2--2--2--
D|--7--7--7--7--7--7--7--7--7--7--7--5--5--5--5--3--3--3--3--3--
A|--------------------------------------------------------------
E|--------------------------------------------------------------
http://www.guitartabcreator.com
Guitar Tab Creator is intended to store guitar tab created through the tool. It currently does not support in-line text editing. Any text you place in here will be lost. If you need to comment on your tab, please use the "Tab Notes" section located below.