Emptiness

(/) Slide Up  (\) Slide Down  (h) Hammer On  (p) Pull Off  (b) Bend (r) Release (v) Vibrato


Intro: Picked notes are clean. The riff that follows is played three times, once with just one guitar, the last two with the whole band having joined in. This "main riff" serves as the intro, front half of the chorus and the outro.

E|------------------------------------------------------------------------------------
B|---------------------------------------------------------------9--9--9--9--9--8--8--
G|-----5-----8------10-5-5-5-5-5-5-8-8-8-8-8-8-10-10-10-10-10-10-10-10-10-10-10-10-10-
D|---5-----8-----10----5-5-5-5-5-5-8-8-8-8-8-8-10-10-10-10-10-10-10-10-10-10-10-10-10-
A|-3-----6-----8-------3-3-3-3-3-3-6-6-6-6-6-6-8--8--8--8--8--8--8--8--8--8--8--8--8--
E|------------------------------------------------------------------------------------

Verse: Palm muted, played three times. These are the chords that I'd be playing, What could be done here is having the second guitar (yours) rest for the first two and just let me play them, and then you join on the third and the verse tail. It's up to you whether you'd double my chords, or do some melodic picking.

E|-------------------------------------------------------------------
B|-------------------------------------------------------------------
G|-5-5-5-5-5-5-5-5-5-8-8-8-8-8-8-8-8---------------------------------
D|-5-5-5-5-5-5-5-5-5-8-8-8-8-8-8-8-8-6-6-6-6-6-6-6-6-3-3-3-3-3-3-3-3-
A|-3-3-3-3-3-3-3-3-3-6-6-6-6-6-6-6-6-6-6-6-6-6-6-6-6-3-3-3-3-3-3-3-3-
E|-----------------------------------4-4-4-4-4-4-4-4-1-1-1-1-1-1-1-1-

Verse Tail: This is the fourth line of the verse, ending with a build that goes into the chorus.

E|-------------------------------------------------------------------------------------
B|-------------------------------------------------------------------------------------
G|-5-5-5-5-5-5-5-5-5-8-8-8-8-8-8-8-8---------------------------------------------------
D|-5-5-5-5-5-5-5-5-5-8-8-8-8-8-8-8-8-6-6-6-6-6-6-6-6-6-6-6-6-6-6-6-6-6-8-8-8-8-8-8-8-8-
A|-3-3-3-3-3-3-3-3-3-6-6-6-6-6-6-6-6-6-6-6-6-6-6-6-6-6-6-6-6-6-6-6-6-6-8-8-8-8-8-8-8-8-
E|-----------------------------------4-4-4-4-4-4-4-4-4-4-4-4-4-4-4-4-4-6-6-6-6-6-6-6-6-

Chorus Front half: Same as the intro (sorry about the random "8" on the E, ignore it, was an accident and the site wouldn't let me remove it)

E|----------------------------------------------------------------------
B|-------------------------------------------------9--9--9--9--9--8--8--
G|-5-5-5-5-5-5-5-8-8-8-8-8-8-8-8-10-10-10-10-10-10-10-10-10-10-10-10-10-
D|-5-5-5-5-5-5-5-8-8-8-8-8-8-8-8-10-10-10-10-10-10-10-10-10-10-10-10-10-
A|-3-3-3-3-3-3-3-6-6-6-6-6-6-6-6-8--8--8--8--8--8--8--8--8--8--8--8--8--
E|----------------------------------------------8-----------------------

Chorus second half: The first 6 chords are drawn out hanging chords, so each time you hit them, let it hang for a bit before moving onto the next. Ends with a build.

E|---------------------------------------------
B|---------------------------------------------
G|-5-8-----5-8---------------------------------
D|-5-8-6-3-5-8-6-6-6-6-6-6-6-6-8-8-8-8-8-8-8-8-
A|-3-6-6-3-3-6-6-6-6-6-6-6-6-6-8-8-8-8-8-8-8-8-
E|-----4-1-----4-4-4-4-4-4-4-4-6-6-6-6-6-6-6-6-

Bridge: Is played twice, with a solo over the second go.

E|-------------------------------------------------------------------------------------------
B|-------------------------------------------------------------------------------------------
G|-5-5-3-5-5-3-3-----------5-5-3-5-5-3-3-----------5-5-3-5-5-3-3---------------8----------10-
D|-5-5-3-5-5-3-3-----1p0---5-5-3-5-5-3-3-----1p0---5-5-3-5-5-3-3-----1p0-----8---8-----10----
A|-3-3-1-3-3-1-1-1h3-----1-3-3-1-3-3-1-1-1h3-----1-3-3-1-3-3-1-1-1h3-----1/6-------6-8-------
E|-------------------------------------------------------------------------------------------



That's it! Virtually only three riffs in the whole song, but that lends you space to come up with interesting guitar overdub parts, be it solos over the outro or little picking moments.

Song structure:

Picked Intro/one solo guitar distorted intro
Intro
Verse/Build
Chorus
Intro
Verse/Build
Chorus
Bridge
Chorus
Intro x 2

http://www.guitartabcreator.com
Guitar Tab Creator is intended to store guitar tab created through the tool. It currently does not support in-line text editing. Any text you place in here will be lost. If you need to comment on your tab, please use the "Tab Notes" section located below.