All Your Life

(/) Slide Up  (\) Slide Down  (h) Hammer On  (p) Pull Off  (b) Bend (r) Release (v) Vibrato

E|----------------------------------------------------------
B|----------------------------------------------------------
G|-----------------------------------3--3--3--5--5--5-------
D|--5--5--5--5--5--5--5--5--5--5--5--3--3--3--5--5--5-------
A|--5--5--5--5--5--5--5--5--5--5--5--1--1--1--3--3--3--3p0--
E|--3--3--3--3--3--3--3--3--3--3--3-------------------------



E|------------------------------------------------------------
B|------------------------------------------------------------
G|------------------------------------------------------------
D|--------5--5--5--------5--5--5--------5--5--5----------1p0--
A|-----------------------------------------------1--1p0-------
E|--3--3-----------3--3-----------3--3------------------------



E|--------------------------------------------------
B|--------------------------------------------------
G|--------------8--8--8--8--5--5--5--5--3--3--5--5--
D|--5--5--5--5--8--8--8--8--5--5--5--5--3--3--5--5--
A|--5--5--5--5--6--6--6--6--3--3--3--3--1--1--3--3--
E|--3--3--3--3--------------------------------------



E|------------------------------------------------------
B|------------------------------------------------------
G|--------------8--8--8--8--5--5--5--5--10--10--10--10--
D|--5--5--5--5--8--8--8--8--5--5--5--5--10--10--10--10--
A|--5--5--5--5--6--6--6--6--3--3--3--3--8---8---8---8---
E|--3--3--3--3------------------------------------------



E|--------------------------------------------
B|--------------------------------------------
G|--------------------------------------------
D|-----------------------------1--1--3--3--3--
A|--1--1--1--1--1--1--1--1--1--1--1--3--3--3--
E|--3--3--3--3--3--3--3--3--3-----------------



E|-------------------------------------------------------------------------------
B|-------------------------------------------------------------------------------
G|-------------------------------------------------------------------------------
D|--------5--3--------------5--3--------------8--6--------------10--8------------
A|--------------5--3--------------5--3--------------8--6---------------10--8-----
E|--3--3--------------3--3--------------6--6--------------8--8-------------------
http://www.guitartabcreator.com
Guitar Tab Creator is intended to store guitar tab created through the tool. It currently does not support in-line text editing. Any text you place in here will be lost. If you need to comment on your tab, please use the "Tab Notes" section located below.