REBELUTION's Eric Rachmany & SOJA's Jacob Hemphill "Suffering" acoustic

(/) Slide Up  (\) Slide Down  (h) Hammer On  (p) Pull Off  (b) Bend (r) Release (v) Vibrato
E|-----
B|-----
G|-----
D|-----
A|-----
E|-----



E|-------------------------------------------------------
B|-------------------------------------------------------
G|-------------------------------------------------------
D|--7----------------------------------------------------
A|-----7-----7-------------------------------------------
E|--------7-----7--9--10--10\12--10h12p10--10--8h9--6h7--



E|--------------------------------------------------------------------------
B|--------------------------------------9-----------9-----------9-----------
G|--7------------------------7-----7h9-----7-----9-----7-----9--------9-----
D|-----7-----7------------7-----7-------------7-----------7--------7--------
A|--------7-----7--10--8----------------------------------------------------
E|--------------------------------------------------------------------------
http://www.guitartabcreator.com
Guitar Tab Creator is intended to store guitar tab created through the tool. It currently does not support in-line text editing. Any text you place in here will be lost. If you need to comment on your tab, please use the "Tab Notes" section located below.