Pilgrim Places Plagues

(/) Slide Up  (\) Slide Down  (h) Hammer On  (p) Pull Off  (b) Bend (r) Release (v) Vibrato

E|------------------------------------------------
B|------------------------------------------------
G|------------------------------------------------
D|----------5--5--5h3-----3h5--11--11--11h12--11--
A|---------------------5--------------------------
E|--3--3h5--3------------------9------------------



E|------------------------------------------------
B|------------------------------------------------
G|------------------------------------------------
D|----------7--7--7h5-----5h7--11--11--11h12--11--
A|---------------------7--------------------------
E|--3--3h5--5------------------9------------------
http://www.guitartabcreator.com
Guitar Tab Creator is intended to store guitar tab created through the tool. It currently does not support in-line text editing. Any text you place in here will be lost. If you need to comment on your tab, please use the "Tab Notes" section located below.