Floating Away

(/) Slide Up  (\) Slide Down  (h) Hammer On  (p) Pull Off  (b) Bend (r) Release (v) Vibrato

E|-------------------------------------------------------------------------------------------------
B|----------18--------------18--------------18------------------------------18--------------18-----
G|------18------18------18------18------18------18------18------18------18------18------18---------
D|-------------------------------------------------------------------------------------------------
A|--16--------------16--------------16--------------16------16------14--------------14-------------
E|-------------------------------------------------------------------------------------------------



E|------------------------------------------
B|--------------18--------------------------
G|--18------18------18------18------18------
D|------------------------------------------
A|------14--------------14------14------16--
E|------------------------------------------



E|--2--2--2--2--2--2--2--2--2--2--
B|--3--3--3--------3--3--3--------
G|--2--2--2--2--2--2--2--2--2--2--
D|--------------------------------
A|--------------------------------
E|--------------------------------
http://www.guitartabcreator.com
Guitar Tab Creator is intended to store guitar tab created through the tool. It currently does not support in-line text editing. Any text you place in here will be lost. If you need to comment on your tab, please use the "Tab Notes" section located below.