Everything Will Be Alright

(/) Slide Up  (\) Slide Down  (h) Hammer On  (p) Pull Off  (b) Bend (r) Release (v) Vibrato
E|--8---8---3--3--3--8---8---3--3--3--
B|--8---8---3--3--3--8---8---3--3--3--
G|--9---9---4--4--4--9---9---4--4--4--
D|--10--10--5--5--5--10--10--5--5--5--
A|--10--10--5--5--5--10--10--5--5--5--
E|--8---8---3--3--3--8---8---3--3--3--



E|-------------------------------------------
B|-------------------------------------------
G|---------10--10-----------10--10-----------
D|-----10--10--10--4--5--5--10--10--4--5--5--
A|-----10--10--10--4--5--5--10--10--4--5--5--
E|-----8---8---8---2--3--3--8---8---2--3--3--



E|---------------------------------------------------------------
B|------------------------------------------------8--------------
G|--9--9--7-----7---------------------9--7-----7-----9--------9--
D|-----------9-----7--9--9--7---------------9-----------9h12-----
A|-----------------------------10--7-----------------------------
E|---------------------------------------------------------------
http://www.guitartabcreator.com
Guitar Tab Creator is intended to store guitar tab created through the tool. It currently does not support in-line text editing. Any text you place in here will be lost. If you need to comment on your tab, please use the "Tab Notes" section located below.