master of puppets

(/) Slide Up  (\) Slide Down  (h) Hammer On  (p) Pull Off  (b) Bend (r) Release (v) Vibrato

E|--------------------
B|--------------------
G|----9------7--6--5--
D|----9------7--6--5--
A|----7------5--4--3--
E|----0---------------



E|-----------------------------------------------------------------------------------
B|-----------------------------------------------------------------------------------
G|--------------------------7--6--5--------------------------------------------------
D|--------------------------7--6--5--------------------------------------------------
A|--------7--------6--------5--4--3--------------------------------------------------
E|--0--0-----0--0-----0--0-----------0--0--7--0--0--6--0--0--5--0--4--0--3--0--2--0--



E|-----------------------------------------------------------------------------------
B|-----------------------------------------------------------------------------------
G|-----------------------------------------------------------------------------------
D|-----------------------------------------------------------------------------------
A|--------2--------3--------4--------3--------2--2--------2--------3-----------------
E|--0--1-----0--1-----0--1-----0--1-----0--1--------0--1-----0--1-----0--------------
http://www.guitartabcreator.com
Guitar Tab Creator is intended to store guitar tab created through the tool. It currently does not support in-line text editing. Any text you place in here will be lost. If you need to comment on your tab, please use the "Tab Notes" section located below.