fade to black intro

(/) Slide Up  (\) Slide Down  (h) Hammer On  (p) Pull Off  (b) Bend (r) Release (v) Vibrato

E|-----------------------------------------------------
B|-----------------------------------------------------
G|--------0-----------------------0--------------------
D|-----4-----4-----4-----4-----4-----4-----4-----4-----
A|--2-----------2-----5-----0-----------0-----5--------
E|-----------------------------------------------------



E|--------------------------------------------------
B|--------------------------------------------------
G|--------0-----------------------2-----------------
D|-----4-----4-----4-----4-----2-----2-----2-----2--
A|--2-----------2-----5-----4-----------4-----0-----
E|--------------------------------------------------



E|--------------------------------------------------------
B|-----------------------------------------------7--------
G|--------------------------------------------7-----7-----
D|----------------------------------------/9--------------
A|--------------------------------------------------------
E|--------------------------------------------------------



E|-----------------------------------------------------------------------------------
B|--7--8/10--8h10--12--10--8--10v------10h12r10p8--7--7h8--7-----7--7h8-----7--------
G|------------------------------------------------------------9----------9-----9--7--
D|-----------------------------------------------------------------------------------
A|-----------------------------------------------------------------------------------
E|-----------------------------------------------------------------------------------



E|-------------------------------------------------
B|------------------------------8p7v--------8/10v--
G|---------------7\6v------7p6---------------------
D|--7--9--9v--9------------------------------------
A|-------------------------------------------------
E|-------------------------------------------------



E|------14--19--14----------15p14----------------------------------------------------
B|--15--------------15-------------15------17--15--14--------------------------------
G|----------------------16-------------14--------------16--14b----r14v----14h16------
D|-------------------------------------------------------------------------------14--
A|-----------------------------------------------------------------------------------
E|-----------------------------------------------------------------------------------



E|-----------------------------------------------------19--17--15v----15h17--14-------------
B|-----------------14--15----14h15r14------14--15--14----------------------------15---------
G|---------14--16----------------------16--------------------------------------------16-----
D|--14h16-----------------------------------------------------------------------------------
A|------------------------------------------------------------------------------------------
E|------------------------------------------------------------------------------------------



E|--14h15--14-------------14h15--14------17--15--14v--------
B|-------------15--------------------15---------------------
G|-----------------14v--------------------------------------
D|----------------------------------------------------------
A|----------------------------------------------------------
E|----------------------------------------------------------



E|----------------------------------------------------12--14--15--12h13--12------17v--------
B|----------------------------------------12--14--15-------------------------15-------------
G|--------------------------------12--14----------------------------------------------------
D|--------------------12--14--15------------------------------------------------------------
A|--------12--14--15------------------------------------------------------------------------
E|------------------------------------------------------------------------------------------
http://www.guitartabcreator.com
Guitar Tab Creator is intended to store guitar tab created through the tool. It currently does not support in-line text editing. Any text you place in here will be lost. If you need to comment on your tab, please use the "Tab Notes" section located below.