witchy woman

(/) Slide Up  (\) Slide Down  (h) Hammer On  (p) Pull Off  (b) Bend (r) Release (v) Vibrato


E|-----------------------------------------------------------------------------------
B|--6h8--6h8--6--------6---------------------6h8--6h8--6--------6--------------------
G|---------------7--7-----7--7--5-------------------------7--7-----7--7--5--8--8/10--
D|---------------------------------8--5----------------------------------5--8--------
A|------------------------------------5----------------------------------------------
E|-----------------------------------------------------------------------------------



E|-----------------------------------------------
B|-------3--3-----5--3-------3--3-----5--3-------
G|-------3--3-----5--3-------3--3-----5--3-------
D|--3/5--------5--------3/5--------5--------3/5--
A|-----------------------------------------------
E|-----------------------------------------------
http://www.guitartabcreator.com
Guitar Tab Creator is intended to store guitar tab created through the tool. It currently does not support in-line text editing. Any text you place in here will be lost. If you need to comment on your tab, please use the "Tab Notes" section located below.