ten years gone

(/) Slide Up  (\) Slide Down  (h) Hammer On  (p) Pull Off  (b) Bend (r) Release (v) Vibrato


E|-----------------------------------------0-------------------------------------------2--
B|--2--0-----0--3--------3--------------2--------0--3--------3----------2--2--2--2--1--1--
G|--2-----2-----2-----2-----2-----------2-----2-----2-----2-----2-------2--2--2--2--2--2--
D|--2-----------3--3-----------3--2-----2-----------3--3-----------3----2-----2--2--1--1--
A|--0-----------------------------0--0--0-------------------------------------------------
E|----------------------------------------------------------------------------------------



E|-----------------7-----------------5-----------------------------------------------------------
B|--0--0--8--8--8--8--0--0--7--7--7--7--7--5--5--------------------------------------------------
G|--0--0--9--9--9--9--0--0--6--6--6--6--6--4--4--------------------------2--4--2--4--4--4--6--2--
D|--0--0--9--9--9--9--0--0--7--7--7--7--7--5--5--------------2--3--2-----2--2--2--5--5--5--5--4--
A|-----------------------------------------------------0--3-----------0--------------------------
E|-----------------------------------------------2--3--------------------------------------------



E|-----------------------------
B|-----------------------------
G|-----2--4--2--2--2--2--4--2--
D|-----4--4--4--3--3--3--3--2--
A|--0--------------------------
E|-----------------------------
http://www.guitartabcreator.com
Guitar Tab Creator is intended to store guitar tab created through the tool. It currently does not support in-line text editing. Any text you place in here will be lost. If you need to comment on your tab, please use the "Tab Notes" section located below.