summer breeze

(/) Slide Up  (\) Slide Down  (h) Hammer On  (p) Pull Off  (b) Bend (r) Release (v) Vibrato


E|--------------------------------
B|--------3--0--------------------
G|-----0--------2--0--------------
D|--2-----------------4--2--0--2--
A|--------------------------------
E|--------------------------------



E|--7--8--10--8--7-----
B|------------------8--
G|---------------------
D|---------------------
A|---------------------
E|---------------------
http://www.guitartabcreator.com
Guitar Tab Creator is intended to store guitar tab created through the tool. It currently does not support in-line text editing. Any text you place in here will be lost. If you need to comment on your tab, please use the "Tab Notes" section located below.