rhiannon, i will, it's a boy, closer to the heart

(/) Slide Up  (\) Slide Down  (h) Hammer On  (p) Pull Off  (b) Bend (r) Release (v) Vibrato


E|-----------------------------------------
B|--1--3--5--3--1--0--------0--1--0--0-----
G|--2--4--5--4--2--0--2--2--0--2--0--0--2--
D|--------------------2--3--------------3--
A|-----------------------------------------
E|-----------------------------------------



E|--------------------------------------------1-----------------------1-----------------
B|--------1--------------------1--------1--1-----3--------1--------1-----3--------------
G|-----------2-----0--3-----------2-----------------3--0-----2--------------3--0--------
D|--2--3--------3--------2--3--------3--------------------------3-----------------2--3--
A|--------------------------------------------------------------------------------------
E|--------------------------------------------------------------------------------------



E|-----0--2--2--2--3--2-----------2--3--5--5--5--8--7--5--3--5-----0-----0-----0--
B|--3--------------------3--0-----------------------------------------------------
G|-----------------------------2--------------------------------2-----2-----2-----
D|--------------------------------------------------------------------------------
A|--------------------------------------------------------------------------------
E|--------------------------------------------------------------------------------



E|--5--7--4--5--4-----------------0--------------------0--------------------0--------
B|-----------------7--5--------3-----3--------------3-----3--------------1-----1-----
G|--------------------------4--------------------2--------------------2-----------2--
D|-----------------------5--------------5--4--4--------------4--3--3--------------3--
A|-----------------------------------------------------------------------------------
E|-----------------------------------------------------------------------------------
http://www.guitartabcreator.com
Guitar Tab Creator is intended to store guitar tab created through the tool. It currently does not support in-line text editing. Any text you place in here will be lost. If you need to comment on your tab, please use the "Tab Notes" section located below.