pretty maids all in a row

(/) Slide Up  (\) Slide Down  (h) Hammer On  (p) Pull Off  (b) Bend (r) Release (v) Vibrato

Stave 1:

E|-----------------------------------------------------------------------------
B|-----------6--8--------------------------------6--8-----6--------------------
G|--8--8--8-----------5--8--8--5-----8--8--8--8--------8-----------5-----------
D|-----------------8--------------8--------------------------5--8-----5--------
A|-----------------------------------------------------------------------8--6--
E|-----------------------------------------------------------------------------

Stave 2:

E|-------------------------------------------------------------------------------------
B|-------------------------------------------------------------------------------------
G|-----5-------------------------------8--5--------------------------------------------
D|--------8--8--8--5--5--5-------------------5--8--5--6--5-----------5--5--------5-----
A|--6-----------------------8--6----6-----------------------8--6--6--------8--6-----8--
E|-------------------------------------------------------------------------------------

Stave 3:

E|----------------------------------------------------------------------------------------------
B|----------------------------------------------------------------------------------------------
G|-----5--7--8--8--8--7--------5-----8--8--8--8--7--5-----7--5----------------------5-----------
D|--8--------------------8--5-----8--------------------8--------8----5--8-----5--8-----5--5--3--
A|-------------------------------------------------------------------------8--------------------
E|----------------------------------------------------------------------------------------------

Stave 4:

E|-----------------------------------------------------------------------------------------------
B|-----------------------------------------------------------------------------------------------
G|-------------5--3--3--3-----------------------8---------------------------------5--7--8--8--8--
D|--1--3--5----------------5--5--3--5--3--1--------10--5--8--6--5--6--5--6--5--8-----------------
A|-------------------------------------------6---------------------------------------------------
E|-----------------------------------------------------------------------------------------------

Stave 5:

E|---------------------------------------------------------------------------------------
B|---------------------------------------------------------------------------------------
G|--7--3--0--5--8--8--8--8--7--5-----7--5--3--8--8--10--7--5--3--5--3--0--3--8--8--8--8--
D|--------------------------------8------------------------------------------------------
A|---------------------------------------------------------------------------------------
E|---------------------------------------------------------------------------------------

Stave 6:

E|--------------------
B|--------------------
G|--7--5--3--7--5--3--
D|--------------------
A|--------------------
E|--------------------

http://www.guitartabcreator.com
Guitar Tab Creator is intended to store guitar tab created through the tool. It currently does not support in-line text editing. Any text you place in here will be lost. If you need to comment on your tab, please use the "Tab Notes" section located below.