love is green

(/) Slide Up  (\) Slide Down  (h) Hammer On  (p) Pull Off  (b) Bend (r) Release (v) Vibrato


E|------------------------------------------------------------------
B|------------------------------------------------------------------
G|-----11--10--8----------------------------------------------------
D|--8-------------11--10--11--10--6--8--10--11--10--6--8--8---------
A|-----------------------------------------------------------8--10--
E|------------------------------------------------------------------



E|-------------------------------------------------------
B|-------------------------------------------------------
G|------10--10--8------------------------------------10--
D|-----------------10--8-----6--6--8--8--10--10--13------
A|--11--------------------8------------------------------
E|-------------------------------------------------------



E|--------------------------------------------------------
B|--------------------------------------------------------
G|--10--10--8---------------------------------------------
D|-------------11--10--11--10--6--8--10--11--10--6--8--8--
A|--------------------------------------------------------
E|--------------------------------------------------------



E|--------------------------------------------------------------
B|-----------6--5--6--5-----------------------------------------
G|--5--7--5--------------5--7--5-----------------------------8--
D|--------------------------------3--5--5---------8--10--10-----
A|-----------------------------------------8--10----------------
E|--------------------------------------------------------------



E|---------------------------8---------8---------8---------8-----------------
B|------8------8----------------12--8-----12--8-----12--8-----12--8----------
G|--10-----10-------------9------------------------------------------17--15--
D|--------------------10-----------------------------------------------------
A|----------------10---------------------------------------------------------
E|---------------------------------------------------------------------------
http://www.guitartabcreator.com
Guitar Tab Creator is intended to store guitar tab created through the tool. It currently does not support in-line text editing. Any text you place in here will be lost. If you need to comment on your tab, please use the "Tab Notes" section located below.