longer

(/) Slide Up  (\) Slide Down  (h) Hammer On  (p) Pull Off  (b) Bend (r) Release (v) Vibrato


E|----------------------------------------------------------
B|--15--17--18--20--17----------13--15--16--18--15----------
G|----------------------17--12----------------------15--10--
D|----------------------------------------------------------
A|----------------------------------------------------------
E|----------------------------------------------------------



E|------------------------------------------------------13----------10-----------------------------
B|--15--17--18--20--17----------13--15--16--15--13--15------11--13------15--17--15--13--12--10--8--
G|----------------------17--12---------------------------------------------------------------------
D|-------------------------------------------------------------------------------------------------
A|-------------------------------------------------------------------------------------------------
E|-------------------------------------------------------------------------------------------------



E|--------------------------------------------------------------------------------------------
B|--3--------0--1--3--5--3-----------3--------0--1--3--8--7--------3--------0--1--3--5--3-----
G|-----4--2-----------------4--0--2-----4--2-----------------7--9-----4--2--------------------
D|--------------------------------------------------------------------------------------------
A|--------------------------------------------------------------------------------------------
E|--------------------------------------------------------------------------------------------



E|--------------------------------
B|--------------3--1-----1--------
G|--4--0--0--2--------3-----2--0--
D|--------------------------------
A|--------------------------------
E|--------------------------------
http://www.guitartabcreator.com
Guitar Tab Creator is intended to store guitar tab created through the tool. It currently does not support in-line text editing. Any text you place in here will be lost. If you need to comment on your tab, please use the "Tab Notes" section located below.