goodbye pork pie hat

(/) Slide Up  (\) Slide Down  (h) Hammer On  (p) Pull Off  (b) Bend (r) Release (v) Vibrato


E|--------------------------------------------------------------------------------------
B|--------------------------------------------------------------------------------------
G|--------------------------------------------------------------------------------------
D|--------3-----3--5-----------3-----------------3-----3--5--3--5-----------3-----------
A|-----5-----5--------5--3--5-----5--3--5-----5-----5--------------5--3--5-----5--3--5--
E|--5--------------------------------------5--------------------------------------------



E|-----5--8-----1--3--1-----1--5--10---------------------------------------------------------
B|--3--------3-----------3--------------------13---------------------------------------------
G|------------------------------------10--12------14--10----------10--13--7--6--13--8--8--7--
D|--------------------------------------------------------11---------------------------------
A|------------------------------------------------------------12-----------------------------
E|-------------------------------------------------------------------------------------------



E|------------------------------------------------------------------
B|--10--8---------8--6--------8--6-----6-----10--8------------------
G|---------10--7--------7--5--------7-----7---------10--7--5--2-----
D|------------------------------------------------------------------
A|---------------------------------------------------------------5--
E|------------------------------------------------------------------
http://www.guitartabcreator.com
Guitar Tab Creator is intended to store guitar tab created through the tool. It currently does not support in-line text editing. Any text you place in here will be lost. If you need to comment on your tab, please use the "Tab Notes" section located below.