goldfinger

(/) Slide Up  (\) Slide Down  (h) Hammer On  (p) Pull Off  (b) Bend (r) Release (v) Vibrato


E|---------------------------------------------------------------
B|---------------------------------------------------------------
G|-----------------------------------3--2--1------1--1--1-----0--
D|-----5--3------5-----3-----------------------------------2-----
A|--3---------------6-------3--5--5------------------------------
E|---------------------------------------------------------------



E|----------------------------------------------------------------------------
B|-----4--2-----8--6------8-----6----------------11--10--9----9--9--9-----10--
G|-----------5---------------8-------5--7--7--7------------------------9------
D|----------------------------------------------------------------------------
A|--3-------------------------------------------------------------------------
E|----------------------------------------------------------------------------
http://www.guitartabcreator.com
Guitar Tab Creator is intended to store guitar tab created through the tool. It currently does not support in-line text editing. Any text you place in here will be lost. If you need to comment on your tab, please use the "Tab Notes" section located below.