gimme shelter

(/) Slide Up  (\) Slide Down  (h) Hammer On  (p) Pull Off  (b) Bend (r) Release (v) Vibrato


E|------9--9------9-------------------
B|--12--------12-----12--9--10--7--9--
G|------------------------------------
D|------------------------------------
A|------------------------------------
E|------------------------------------



E|------9--9------9--------------------------
B|--12--------12-----12--9b10--7--9----------
G|-----------------------------------9b7-----
D|----------------------------------------9--
A|-------------------------------------------
E|-------------------------------------------
http://www.guitartabcreator.com
Guitar Tab Creator is intended to store guitar tab created through the tool. It currently does not support in-line text editing. Any text you place in here will be lost. If you need to comment on your tab, please use the "Tab Notes" section located below.